  0
SECTION
  2
HEADER
  9
$ACADVER
  1
AC1015
  9
$ACADMAINTVER
 70
     6
  9
$DWGCODEPAGE
  3
ANSI_1254
  9
$INSBASE
 10
0.0
 20
0.0
 30
0.0
  9
$EXTMIN
 10
0.0
 20
0.0
 30
0.0
  9
$EXTMAX
 10
279.4
 20
215.9
 30
0.0
  9
$LIMMIN
 10
0.0
 20
0.0
  9
$LIMMAX
 10
279.4
 20
215.9
  9
$ORTHOMODE
 70
     0
  9
$REGENMODE
 70
     1
  9
$FILLMODE
 70
     1
  9
$QTEXTMODE
 70
     0
  9
$MIRRTEXT
 70
     1
  9
$LTSCALE
 40
1.0
  9
$ATTMODE
 70
     1
  9
$TEXTSIZE
 40
3.5
  9
$TRACEWID
 40
1.0
  9
$TEXTSTYLE
  7
Standard
  9
$CLAYER
  8
0
  9
$CELTYPE
  6
ByLayer
  9
$CECOLOR
 62
   256
  9
$CELTSCALE
 40
1.0
  9
$DISPSILH
 70
     0
  9
$DIMSCALE
 40
1.0
  9
$DIMASZ
 40
3.5
  9
$DIMEXO
 40
1.0
  9
$DIMDLI
 40
3.75
  9
$DIMRND
 40
0.0
  9
$DIMDLE
 40
0.0
  9
$DIMEXE
 40
1.0
  9
$DIMTP
 40
0.0
  9
$DIMTM
 40
0.0
  9
$DIMTXT
 40
3.5
  9
$DIMCEN
 40
2.5
  9
$DIMTSZ
 40
0.0
  9
$DIMTOL
 70
     0
  9
$DIMLIM
 70
     0
  9
$DIMTIH
 70
     1
  9
$DIMTOH
 70
     1
  9
$DIMSE1
 70
     0
  9
$DIMSE2
 70
     0
  9
$DIMTAD
 70
     1
  9
$DIMZIN
 70
     0
  9
$DIMBLK
  1

  9
$DIMASO
 70
     1
  9
$DIMSHO
 70
     1
  9
$DIMPOST
  1

  9
$DIMAPOST
  1

  9
$DIMALT
 70
     0
  9
$DIMALTD
 70
     3
  9
$DIMALTF
 40
0.0393700787
  9
$DIMLFAC
 40
1.0
  9
$DIMTOFL
 70
     1
  9
$DIMTVP
 40
0.0
  9
$DIMTIX
 70
     0
  9
$DIMSOXD
 70
     0
  9
$DIMSAH
 70
     0
  9
$DIMBLK1
  1

  9
$DIMBLK2
  1

  9
$DIMSTYLE
  2
ISO-25
  9
$DIMCLRD
 70
     0
  9
$DIMCLRE
 70
     0
  9
$DIMCLRT
 70
     0
  9
$DIMTFAC
 40
1.0
  9
$DIMGAP
 40
1.524
  9
$DIMJUST
 70
     0
  9
$DIMSD1
 70
     0
  9
$DIMSD2
 70
     0
  9
$DIMTOLJ
 70
     0
  9
$DIMTZIN
 70
     0
  9
$DIMALTZ
 70
     0
  9
$DIMALTTZ
 70
     0
  9
$DIMUPT
 70
     0
  9
$DIMDEC
 70
     2
  9
$DIMTDEC
 70
     2
  9
$DIMALTU
 70
     2
  9
$DIMALTTD
 70
     3
  9
$DIMTXSTY
  7
Standard
  9
$DIMAUNIT
 70
     0
  9
$DIMADEC
 70
     2
  9
$DIMALTRND
 40
0.0
  9
$DIMAZIN
 70
     0
  9
$DIMDSEP
 70
    44
  9
$DIMATFIT
 70
     3
  9
$DIMFRAC
 70
     0
  9
$DIMLDRBLK
  1

  9
$DIMLUNIT
 70
     2
  9
$DIMLWD
 70
    -2
  9
$DIMLWE
 70
    -2
  9
$DIMTMOVE
 70
     0
  9
$LUNITS
 70
     2
  9
$LUPREC
 70
     2
  9
$SKETCHINC
 40
1.0
  9
$FILLETRAD
 40
10.0
  9
$AUNITS
 70
     0
  9
$AUPREC
 70
     2
  9
$MENU
  1
.
  9
$ELEVATION
 40
0.0
  9
$PELEVATION
 40
0.0
  9
$THICKNESS
 40
0.0
  9
$LIMCHECK
 70
     0
  9
$CHAMFERA
 40
0.0
  9
$CHAMFERB
 40
0.0
  9
$CHAMFERC
 40
0.0
  9
$CHAMFERD
 40
0.0
  9
$SKPOLY
 70
     0
  9
$TDCREATE
 40
2458985.646401042
  9
$TDUCREATE
 40
2458985.521401042
  9
$TDUPDATE
 40
2458985.646401435
  9
$TDUUPDATE
 40
2458985.521401435
  9
$TDINDWG
 40
0.0000000116
  9
$TDUSRTIMER
 40
0.0000000116
  9
$USRTIMER
 70
     1
  9
$ANGBASE
 50
0.0
  9
$ANGDIR
 70
     0
  9
$PDMODE
 70
     0
  9
$PDSIZE
 40
-1.0
  9
$PLINEWID
 40
0.0
  9
$SPLFRAME
 70
     0
  9
$SPLINETYPE
 70
     6
  9
$SPLINESEGS
 70
     8
  9
$HANDSEED
  5
C2
  9
$SURFTAB1
 70
     6
  9
$SURFTAB2
 70
     6
  9
$SURFTYPE
 70
     6
  9
$SURFU
 70
     6
  9
$SURFV
 70
     6
  9
$UCSBASE
  2

  9
$UCSNAME
  2

  9
$UCSORG
 10
0.0
 20
0.0
 30
0.0
  9
$UCSXDIR
 10
1.0
 20
0.0
 30
0.0
  9
$UCSYDIR
 10
0.0
 20
1.0
 30
0.0
  9
$UCSORTHOREF
  2

  9
$UCSORTHOVIEW
 70
     0
  9
$UCSORGTOP
 10
0.0
 20
0.0
 30
0.0
  9
$UCSORGBOTTOM
 10
0.0
 20
0.0
 30
0.0
  9
$UCSORGLEFT
 10
0.0
 20
0.0
 30
0.0
  9
$UCSORGRIGHT
 10
0.0
 20
0.0
 30
0.0
  9
$UCSORGFRONT
 10
0.0
 20
0.0
 30
0.0
  9
$UCSORGBACK
 10
0.0
 20
0.0
 30
0.0
  9
$PUCSBASE
  2

  9
$PUCSNAME
  2

  9
$PUCSORG
 10
0.0
 20
0.0
 30
0.0
  9
$PUCSXDIR
 10
1.0
 20
0.0
 30
0.0
  9
$PUCSYDIR
 10
0.0
 20
1.0
 30
0.0
  9
$PUCSORTHOREF
  2

  9
$PUCSORTHOVIEW
 70
     0
  9
$PUCSORGTOP
 10
0.0
 20
0.0
 30
0.0
  9
$PUCSORGBOTTOM
 10
0.0
 20
0.0
 30
0.0
  9
$PUCSORGLEFT
 10
0.0
 20
0.0
 30
0.0
  9
$PUCSORGRIGHT
 10
0.0
 20
0.0
 30
0.0
  9
$PUCSORGFRONT
 10
0.0
 20
0.0
 30
0.0
  9
$PUCSORGBACK
 10
0.0
 20
0.0
 30
0.0
  9
$USERI1
 70
     0
  9
$USERI2
 70
     0
  9
$USERI3
 70
     0
  9
$USERI4
 70
     0
  9
$USERI5
 70
     0
  9
$USERR1
 40
0.0
  9
$USERR2
 40
0.0
  9
$USERR3
 40
0.0
  9
$USERR4
 40
0.0
  9
$USERR5
 40
0.0
  9
$WORLDVIEW
 70
     1
  9
$SHADEDGE
 70
     3
  9
$SHADEDIF
 70
    70
  9
$TILEMODE
 70
     1
  9
$MAXACTVP
 70
    64
  9
$PINSBASE
 10
0.0
 20
0.0
 30
0.0
  9
$PLIMCHECK
 70
     0
  9
$PEXTMIN
 10
1.0000000000E+20
 20
1.0000000000E+20
 30
1.0000000000E+20
  9
$PEXTMAX
 10
-1.0000000000E+20
 20
-1.0000000000E+20
 30
-1.0000000000E+20
  9
$PLIMMIN
 10
0.0
 20
0.0
  9
$PLIMMAX
 10
420.0
 20
297.0
  9
$UNITMODE
 70
     0
  9
$VISRETAIN
 70
     1
  9
$PLINEGEN
 70
     0
  9
$PSLTSCALE
 70
     1
  9
$TREEDEPTH
 70
  3020
  9
$CMLSTYLE
  2
Standard
  9
$CMLJUST
 70
     0
  9
$CMLSCALE
 40
20.0
  9
$PROXYGRAPHICS
 70
     1
  9
$MEASUREMENT
 70
     1
  9
$CELWEIGHT
370
    -1
  9
$ENDCAPS
280
     0
  9
$JOINSTYLE
280
     0
  9
$LWDISPLAY
290
     1
  9
$INSUNITS
 70
     4
  9
$HYPERLINKBASE
  1

  9
$STYLESHEET
  1

  9
$XEDIT
290
     1
  9
$CEPSNTYPE
380
     0
  9
$PSTYLEMODE
290
     1
  9
$FINGERPRINTGUID
  2
{c8c0690d-3e83-468e-865d-0037dbcad02e}
  9
$VERSIONGUID
  2
{FAEB1C32-E019-11D5-929B-00C0DF256EC4}
  9
$EXTNAMES
290
     1
  9
$PSVPSCALE
 40
0.0
  9
$OLESTARTUP
290
     0
  0
ENDSEC
  0
SECTION
  2
CLASSES
  0
CLASS
  1
ACDBDICTIONARYWDFLT
  2
AcDbDictionaryWithDefault
  3
ObjectDBX Classes
 90
        0
280
     0
281
     0
  0
CLASS
  1
VISUALSTYLE
  2
AcDbVisualStyle
  3
ObjectDBX Classes
 90
     4095
280
     0
281
     0
  0
CLASS
  1
MATERIAL
  2
AcDbMaterial
  3
ObjectDBX Classes
 90
     1153
280
     0
281
     0
  0
CLASS
  1
SCALE
  2
AcDbScale
  3
ObjectDBX Classes
 90
     1153
280
     0
281
     0
  0
CLASS
  1
TABLESTYLE
  2
AcDbTableStyle
  3
ObjectDBX Classes
 90
     4095
280
     0
281
     0
  0
CLASS
  1
MLEADERSTYLE
  2
AcDbMLeaderStyle
  3
ACDB_MLEADERSTYLE_CLASS
 90
     4095
280
     0
281
     0
  0
CLASS
  1
SUN
  2
AcDbSun
  3
SCENEOE
 90
     1153
280
     0
281
     0
  0
CLASS
  1
ACDBPLACEHOLDER
  2
AcDbPlaceHolder
  3
ObjectDBX Classes
 90
        0
280
     0
281
     0
  0
CLASS
  1
LAYOUT
  2
AcDbLayout
  3
ObjectDBX Classes
 90
        0
280
     0
281
     0
  0
ENDSEC
  0
SECTION
  2
TABLES
  0
TABLE
  2
VPORT
  5
8
330
0
100
AcDbSymbolTable
 70
     1
  0
VPORT
  5
29
330
8
100
AcDbSymbolTableRecord
100
AcDbViewportTableRecord
  2
*Active
 70
     0
 10
0.0
 20
0.0
 11
1.0
 21
1.0
 12
139.7
 22
107.95
 13
0.0
 23
0.0
 14
10.0
 24
10.0
 15
10.0
 25
10.0
 16
0.0
 26
0.0
 36
1.0
 17
0.0
 27
0.0
 37
0.0
 40
215.9
 41
1.2941176471
 42
50.0
 43
0.0
 44
0.0
 50
0.0
 51
0.0
 71
     0
 72
  2000
 73
     1
 74
     3
 75
     0
 76
     0
 77
     0
 78
     0
281
     0
 65
     1
110
0.0
120
0.0
130
0.0
111
1.0
121
0.0
131
0.0
112
0.0
122
1.0
132
0.0
 79
     0
146
0.0
  0
ENDTAB
  0
TABLE
  2
LTYPE
  5
5
330
0
100
AcDbSymbolTable
 70
     6
  0
LTYPE
  5
14
330
5
100
AcDbSymbolTableRecord
100
AcDbLinetypeTableRecord
  2
ByBlock
 70
     0
  3

 72
    65
 73
     0
 40
0.0
  0
LTYPE
  5
15
330
5
100
AcDbSymbolTableRecord
100
AcDbLinetypeTableRecord
  2
ByLayer
 70
     0
  3

 72
    65
 73
     0
 40
0.0
  0
LTYPE
  5
16
330
5
100
AcDbSymbolTableRecord
100
AcDbLinetypeTableRecord
  2
Continuous
 70
     0
  3
Solid line
 72
    65
 73
     0
 40
0.0
  0
LTYPE
  5
6E
330
5
100
AcDbSymbolTableRecord
100
AcDbLinetypeTableRecord
  2
HIDDEN
 70
     0
  3
Hidden __ __ __ __ __ __ __ __ __ __ __ __ __ __
 72
    65
 73
     2
 40
1.905
 49
1.27
 74
     0
 49
-0.635
 74
     0
  0
LTYPE
  5
6F
330
5
100
AcDbSymbolTableRecord
100
AcDbLinetypeTableRecord
  2
PHANTOM
 70
     0
  3
Phantom ______  __  __  ______  __  __  ______
 72
    65
 73
     6
 40
12.7
 49
6.35
 74
     0
 49
-1.27
 74
     0
 49
1.27
 74
     0
 49
-1.27
 74
     0
 49
1.27
 74
     0
 49
-1.27
 74
     0
  0
LTYPE
  5
70
330
5
100
AcDbSymbolTableRecord
100
AcDbLinetypeTableRecord
  2
CENTER
 70
     0
  3
Center ____ _ ____ _ ____ _ ____ _ ____ _ ____
 72
    65
 73
     4
 40
10.16
 49
6.35
 74
     0
 49
-1.27
 74
     0
 49
1.27
 74
     0
 49
-1.27
 74
     0
  0
LTYPE
  5
71
330
5
100
AcDbSymbolTableRecord
100
AcDbLinetypeTableRecord
  2
CENTERX2
 70
     0
  3
Center (2x) ________  __  ________  __  _____
 72
    65
 73
     4
 40
20.32
 49
12.7
 74
     0
 49
-2.54
 74
     0
 49
2.54
 74
     0
 49
-2.54
 74
     0
  0
LTYPE
  5
72
330
5
100
AcDbSymbolTableRecord
100
AcDbLinetypeTableRecord
  2
DOT2
 70
     0
  3
Dot (.5x) ........................................
 72
    65
 73
     2
 40
0.635
 49
0.0
 74
     0
 49
-0.635
 74
     0
  0
ENDTAB
  0
TABLE
  2
LAYER
  5
2
330
0
100
AcDbSymbolTable
 70
    17
  0
LAYER
  5
10
330
2
100
AcDbSymbolTableRecord
100
AcDbLayerTableRecord
  2
0
 70
     0
 62
     7
  6
Continuous
370
    -3
390
F
  0
LAYER
  5
73
330
2
100
AcDbSymbolTableRecord
100
AcDbLayerTableRecord
  2
FORMAT
 70
     0
 62
     7
  6
Continuous
370
    -3
390
F
  0
LAYER
  5
74
330
2
100
AcDbSymbolTableRecord
100
AcDbLayerTableRecord
  2
YARDIMCI_GEOMETRI
 70
     0
 62
    -6
  6
Continuous
290
     0
370
    -3
390
F
  0
LAYER
  5
75
330
2
100
AcDbSymbolTableRecord
100
AcDbLayerTableRecord
  2
SAYFA_CERCEVESI
 70
     0
 62
     7
  6
Continuous
370
    25
390
F
  0
LAYER
  5
76
330
2
100
AcDbSymbolTableRecord
100
AcDbLayerTableRecord
  2
ANTET
 70
     0
 62
     7
  6
Continuous
370
    -3
390
F
  0
LAYER
  5
77
330
2
100
AcDbSymbolTableRecord
100
AcDbLayerTableRecord
  2
OLCU
 70
     0
 62
   150
  6
Continuous
370
    -3
390
F
  0
LAYER
  5
78
330
2
100
AcDbSymbolTableRecord
100
AcDbLayerTableRecord
  2
METIN
 70
     0
 62
    96
  6
Continuous
370
    -3
390
F
  0
LAYER
  5
79
330
2
100
AcDbSymbolTableRecord
100
AcDbLayerTableRecord
  2
BALON
 70
     0
 62
     5
  6
Continuous
370
    -3
390
F
  0
LAYER
  5
7A
330
2
100
AcDbSymbolTableRecord
100
AcDbLayerTableRecord
  2
VURGU
 70
     0
 62
     7
  6
Continuous
370
    -3
390
F
  0
LAYER
  5
7B
330
2
100
AcDbSymbolTableRecord
100
AcDbLayerTableRecord
  2
SILIK
 70
     0
 62
     7
  6
Continuous
370
    -3
390
F
  0
LAYER
  5
7C
330
2
100
AcDbSymbolTableRecord
100
AcDbLayerTableRecord
  2
MODEL
 70
     0
 62
     7
  6
Continuous
370
    -3
390
F
  0
LAYER
  5
7D
330
2
100
AcDbSymbolTableRecord
100
AcDbLayerTableRecord
  2
DETAYLANDıRMA
 70
     0
 62
   190
  6
Continuous
370
    -3
390
F
  0
LAYER
  5
7E
330
2
100
AcDbSymbolTableRecord
100
AcDbLayerTableRecord
  2
TOLERANS
 70
     0
 62
   230
  6
Continuous
370
    -3
390
F
  0
LAYER
  5
7F
330
2
100
AcDbSymbolTableRecord
100
AcDbLayerTableRecord
  2
MERKEZ_CIZGILERI
 70
     0
 62
    30
  6
Continuous
370
    -3
390
F
  0
LAYER
  5
80
330
2
100
AcDbSymbolTableRecord
100
AcDbLayerTableRecord
  2
KESIT-DETAY_CIZGILERI
 70
     0
 62
     7
  6
Continuous
370
    -3
390
F
  0
LAYER
  5
81
330
2
100
AcDbSymbolTableRecord
100
AcDbLayerTableRecord
  2
\U+041E\U+0421\U+0415\U+0412\U+042B\U+0415
 70
     0
 62
     7
  6
Continuous
370
    -3
390
F
  0
LAYER
  5
82
330
2
100
AcDbSymbolTableRecord
100
AcDbLayerTableRecord
  2
\U+0412\U+041E\U+0414\U+042F\U+041D\U+042B\U+0415_\U+0417\U+041D\U+0410\U+041A\U+0418
 70
     0
 62
    11
  6
Continuous
370
    -3
390
F
  0
ENDTAB
  0
TABLE
  2
STYLE
  5
3
330
0
100
AcDbSymbolTable
 70
     1
  0
STYLE
  5
11
330
3
100
AcDbSymbolTableRecord
100
AcDbTextStyleTableRecord
  2
Standard
 70
     0
 40
0.0
 41
1.0
 50
0.0
 71
     0
 42
3.5
  3
txt
  4

  0
ENDTAB
  0
TABLE
  2
VIEW
  5
6
330
0
100
AcDbSymbolTable
 70
     0
  0
ENDTAB
  0
TABLE
  2
UCS
  5
7
330
0
100
AcDbSymbolTable
 70
     0
  0
ENDTAB
  0
TABLE
  2
APPID
  5
9
330
0
100
AcDbSymbolTable
 70
     1
  0
APPID
  5
12
330
9
100
AcDbSymbolTableRecord
100
AcDbRegAppTableRecord
  2
ACAD
 70
     0
  0
ENDTAB
  0
TABLE
  2
DIMSTYLE
  5
A
330
0
100
AcDbSymbolTable
 70
     1
100
AcDbDimStyleTable
  0
DIMSTYLE
105
27
330
A
100
AcDbSymbolTableRecord
100
AcDbDimStyleTableRecord
  2
ISO-25
 70
     0
 41
2.5
 42
0.625
 43
3.75
 44
1.25
 73
     0
 74
     0
 77
     1
 78
     8
140
2.5
141
2.5
143
0.0393700787
147
0.625
171
     3
172
     1
178
     0
271
     2
272
     2
274
     3
278
    44
283
     0
284
     8
340
11
  0
ENDTAB
  0
TABLE
  2
BLOCK_RECORD
  5
1
330
0
100
AcDbSymbolTable
 70
     1
  0
BLOCK_RECORD
  5
1F
330
1
100
AcDbSymbolTableRecord
100
AcDbBlockTableRecord
  2
*Model_Space
340
22
  0
BLOCK_RECORD
  5
1B
330
1
100
AcDbSymbolTableRecord
100
AcDbBlockTableRecord
  2
*Paper_Space
340
1E
  0
BLOCK_RECORD
  5
23
330
1
100
AcDbSymbolTableRecord
100
AcDbBlockTableRecord
  2
*Paper_Space0
340
26
  0
ENDTAB
  0
ENDSEC
  0
SECTION
  2
BLOCKS
  0
BLOCK
  5
20
330
1F
100
AcDbEntity
  8
0
100
AcDbBlockBegin
  2
*Model_Space
 70
     0
 10
0.0
 20
0.0
 30
0.0
  3
*Model_Space
  1

  0
ENDBLK
  5
21
330
1F
100
AcDbEntity
  8
0
100
AcDbBlockEnd
  0
BLOCK
  5
1C
330
1B
100
AcDbEntity
 67
     1
  8
0
100
AcDbBlockBegin
  2
*Paper_Space
 70
     0
 10
0.0
 20
0.0
 30
0.0
  3
*Paper_Space
  1

  0
ENDBLK
  5
1D
330
1B
100
AcDbEntity
 67
     1
  8
0
100
AcDbBlockEnd
  0
BLOCK
  5
24
330
23
100
AcDbEntity
  8
0
100
AcDbBlockBegin
  2
*Paper_Space0
 70
     0
 10
0.0
 20
0.0
 30
0.0
  3
*Paper_Space0
  1

  0
ENDBLK
  5
25
330
23
100
AcDbEntity
  8
0
100
AcDbBlockEnd
  0
ENDSEC
  0
SECTION
  2
ENTITIES
  0
CIRCLE
  5
83
330
1F
100
AcDbEntity
  8
0
  6
Continuous
 62
     7
370
    25
100
AcDbCircle
 10
143.0237909439
 20
104.2139541699
 30
0.0
 40
250.0
  0
CIRCLE
  5
84
330
1F
100
AcDbEntity
  8
0
  6
Continuous
 62
     7
370
    25
100
AcDbCircle
 10
143.0237909439
 20
104.2139541699
 30
0.0
 40
204.6
  0
CIRCLE
  5
85
330
1F
100
AcDbEntity
  8
0
  6
Continuous
 62
     7
370
    25
100
AcDbCircle
 10
143.0237909439
 20
104.2139541699
 30
0.0
 40
265.0
  0
CIRCLE
  5
86
330
1F
100
AcDbEntity
  8
0
  6
Continuous
 62
     7
370
    25
100
AcDbCircle
 10
143.0237909439
 20
104.2139541699
 30
0.0
 40
295.0
  0
LINE
  5
87
330
1F
100
AcDbEntity
  8
0
  6
Continuous
 62
     7
370
    25
100
AcDbLine
 10
438.0237909439
 20
539.9603011455
 30
0.0
 11
438.0237909439
 21
599.9603011455
 31
0.0
  0
LINE
  5
88
330
1F
100
AcDbEntity
  8
0
  6
Continuous
 62
     7
370
    25
100
AcDbLine
 10
-151.9762090561
 20
599.9603011455
 30
0.0
 11
-151.9762090561
 21
539.9603011455
 31
0.0
  0
LINE
  5
89
330
1F
100
AcDbEntity
  8
0
  6
Continuous
 62
     7
370
    25
100
AcDbLine
 10
408.0237909439
 20
599.9603011455
 30
0.0
 11
393.0237909439
 21
633.9603011455
 31
0.0
  0
LINE
  5
8A
330
1F
100
AcDbEntity
  8
0
  6
Continuous
 62
     7
370
    25
100
AcDbLine
 10
-106.9762090561
 20
633.9603011455
 30
0.0
 11
-121.9762090561
 21
599.9603011455
 31
0.0
  0
LINE
  5
8B
330
1F
100
AcDbEntity
  8
0
  6
Continuous
 62
     7
370
    25
100
AcDbLine
 10
393.0237909439
 20
633.9603011455
 30
0.0
 11
393.0237909439
 21
673.9603011455
 31
0.0
  0
LINE
  5
8C
330
1F
100
AcDbEntity
  8
0
  6
Continuous
 62
     7
370
    25
100
AcDbLine
 10
-106.9762090561
 20
673.9603011455
 30
0.0
 11
-106.9762090561
 21
633.9603011455
 31
0.0
  0
LINE
  5
8D
330
1F
100
AcDbEntity
  8
0
  6
Continuous
 62
     7
370
    25
100
AcDbLine
 10
438.0237909439
 20
539.9603011455
 30
0.0
 11
-151.9762090561
 21
539.9603011455
 31
0.0
  0
LINE
  5
8E
330
1F
100
AcDbEntity
  8
0
  6
Continuous
 62
     7
370
    25
100
AcDbLine
 10
438.0237909439
 20
599.9603011455
 30
0.0
 11
-151.9762090561
 21
599.9603011455
 31
0.0
  0
LINE
  5
8F
330
1F
100
AcDbEntity
  8
0
  6
Continuous
 62
     7
370
    25
100
AcDbLine
 10
393.0237909439
 20
633.9603011455
 30
0.0
 11
-106.9762090561
 21
633.9603011455
 31
0.0
  0
LINE
  5
90
330
1F
100
AcDbEntity
  8
0
  6
Continuous
 62
     7
370
    25
100
AcDbLine
 10
393.0237909439
 20
673.9603011455
 30
0.0
 11
-106.9762090561
 21
673.9603011455
 31
0.0
  0
LINE
  5
91
330
1F
100
AcDbEntity
  8
0
  6
Continuous
 62
     7
370
    25
100
AcDbLine
 10
-298.3583212853
 20
399.2139541699
 30
0.0
 11
-358.3583212853
 21
399.2139541699
 31
0.0
  0
LINE
  5
92
330
1F
100
AcDbEntity
  8
0
  6
Continuous
 62
     7
370
    25
100
AcDbLine
 10
-358.3583212853
 20
-190.7860458301
 30
0.0
 11
-298.3583212853
 21
-190.7860458301
 31
0.0
  0
LINE
  5
93
330
1F
100
AcDbEntity
  8
0
  6
Continuous
 62
     7
370
    25
100
AcDbLine
 10
-358.3583212853
 20
369.2139541699
 30
0.0
 11
-392.3583212853
 21
354.2139541699
 31
0.0
  0
LINE
  5
94
330
1F
100
AcDbEntity
  8
0
  6
Continuous
 62
     7
370
    25
100
AcDbLine
 10
-392.3583212853
 20
-145.7860458301
 30
0.0
 11
-358.3583212853
 21
-160.7860458301
 31
0.0
  0
LINE
  5
95
330
1F
100
AcDbEntity
  8
0
  6
Continuous
 62
     7
370
    25
100
AcDbLine
 10
-392.3583212853
 20
354.2139541699
 30
0.0
 11
-432.3583212853
 21
354.2139541699
 31
0.0
  0
LINE
  5
96
330
1F
100
AcDbEntity
  8
0
  6
Continuous
 62
     7
370
    25
100
AcDbLine
 10
-432.3583212853
 20
-145.7860458301
 30
0.0
 11
-392.3583212853
 21
-145.7860458301
 31
0.0
  0
LINE
  5
97
330
1F
100
AcDbEntity
  8
0
  6
Continuous
 62
     7
370
    25
100
AcDbLine
 10
-298.3583212853
 20
399.2139541699
 30
0.0
 11
-298.3583212853
 21
-190.7860458301
 31
0.0
  0
LINE
  5
98
330
1F
100
AcDbEntity
  8
0
  6
Continuous
 62
     7
370
    25
100
AcDbLine
 10
-358.3583212853
 20
399.2139541699
 30
0.0
 11
-358.3583212853
 21
-190.7860458301
 31
0.0
  0
LINE
  5
99
330
1F
100
AcDbEntity
  8
0
  6
Continuous
 62
     7
370
    25
100
AcDbLine
 10
-392.3583212853
 20
354.2139541699
 30
0.0
 11
-392.3583212853
 21
-145.7860458301
 31
0.0
  0
LINE
  5
9A
330
1F
100
AcDbEntity
  8
0
  6
Continuous
 62
     7
370
    25
100
AcDbLine
 10
-432.3583212853
 20
354.2139541699
 30
0.0
 11
-432.3583212853
 21
-145.7860458301
 31
0.0
  0
LINE
  5
9B
330
1F
100
AcDbEntity
  8
0
  6
Continuous
 62
     7
370
    25
100
AcDbLine
 10
-151.9762090561
 20
-467.3113754903
 30
0.0
 11
-151.9762090561
 21
-527.3113754903
 31
0.0
  0
LINE
  5
9C
330
1F
100
AcDbEntity
  8
0
  6
Continuous
 62
     7
370
    25
100
AcDbLine
 10
438.0237909439
 20
-527.3113754903
 30
0.0
 11
438.0237909439
 21
-467.3113754903
 31
0.0
  0
LINE
  5
9D
330
1F
100
AcDbEntity
  8
0
  6
Continuous
 62
     7
370
    25
100
AcDbLine
 10
-121.9762090561
 20
-527.3113754903
 30
0.0
 11
-106.9762090561
 21
-561.3113754903
 31
0.0
  0
LINE
  5
9E
330
1F
100
AcDbEntity
  8
0
  6
Continuous
 62
     7
370
    25
100
AcDbLine
 10
393.0237909439
 20
-561.3113754903
 30
0.0
 11
408.0237909439
 21
-527.3113754903
 31
0.0
  0
LINE
  5
9F
330
1F
100
AcDbEntity
  8
0
  6
Continuous
 62
     7
370
    25
100
AcDbLine
 10
-106.9762090561
 20
-561.3113754903
 30
0.0
 11
-106.9762090561
 21
-601.3113754903
 31
0.0
  0
LINE
  5
A0
330
1F
100
AcDbEntity
  8
0
  6
Continuous
 62
     7
370
    25
100
AcDbLine
 10
393.0237909439
 20
-601.3113754903
 30
0.0
 11
393.0237909439
 21
-561.3113754903
 31
0.0
  0
LINE
  5
A1
330
1F
100
AcDbEntity
  8
0
  6
Continuous
 62
     7
370
    25
100
AcDbLine
 10
-151.9762090561
 20
-467.3113754903
 30
0.0
 11
438.0237909439
 21
-467.3113754903
 31
0.0
  0
LINE
  5
A2
330
1F
100
AcDbEntity
  8
0
  6
Continuous
 62
     7
370
    25
100
AcDbLine
 10
-151.9762090561
 20
-527.3113754903
 30
0.0
 11
438.0237909439
 21
-527.3113754903
 31
0.0
  0
LINE
  5
A3
330
1F
100
AcDbEntity
  8
0
  6
Continuous
 62
     7
370
    25
100
AcDbLine
 10
-106.9762090561
 20
-561.3113754903
 30
0.0
 11
393.0237909439
 21
-561.3113754903
 31
0.0
  0
LINE
  5
A4
330
1F
100
AcDbEntity
  8
0
  6
Continuous
 62
     7
370
    25
100
AcDbLine
 10
-106.9762090561
 20
-601.3113754903
 30
0.0
 11
393.0237909439
 21
-601.3113754903
 31
0.0
  0
LINE
  5
A5
330
1F
100
AcDbEntity
  8
0
  6
Continuous
 62
     7
370
    25
100
AcDbLine
 10
752.3477672028
 20
-190.7860458301
 30
0.0
 11
812.3477672028
 21
-190.7860458301
 31
0.0
  0
LINE
  5
A6
330
1F
100
AcDbEntity
  8
0
  6
Continuous
 62
     7
370
    25
100
AcDbLine
 10
812.3477672028
 20
399.2139541699
 30
0.0
 11
752.3477672028
 21
399.2139541699
 31
0.0
  0
LINE
  5
A7
330
1F
100
AcDbEntity
  8
0
  6
Continuous
 62
     7
370
    25
100
AcDbLine
 10
812.3477672028
 20
-160.7860458301
 30
0.0
 11
846.3477672028
 21
-145.7860458301
 31
0.0
  0
LINE
  5
A8
330
1F
100
AcDbEntity
  8
0
  6
Continuous
 62
     7
370
    25
100
AcDbLine
 10
846.3477672028
 20
354.2139541699
 30
0.0
 11
812.3477672028
 21
369.2139541699
 31
0.0
  0
LINE
  5
A9
330
1F
100
AcDbEntity
  8
0
  6
Continuous
 62
     7
370
    25
100
AcDbLine
 10
846.3477672028
 20
-145.7860458301
 30
0.0
 11
886.3477672028
 21
-145.7860458301
 31
0.0
  0
LINE
  5
AA
330
1F
100
AcDbEntity
  8
0
  6
Continuous
 62
     7
370
    25
100
AcDbLine
 10
886.3477672028
 20
354.2139541699
 30
0.0
 11
846.3477672028
 21
354.2139541699
 31
0.0
  0
LINE
  5
AB
330
1F
100
AcDbEntity
  8
0
  6
Continuous
 62
     7
370
    25
100
AcDbLine
 10
752.3477672028
 20
104.2139541699
 30
0.0
 11
752.3477672028
 21
399.2139541699
 31
0.0
  0
LINE
  5
AC
330
1F
100
AcDbEntity
  8
0
  6
Continuous
 62
     7
370
    25
100
AcDbLine
 10
752.3477672028
 20
-190.7860458301
 30
0.0
 11
752.3477672028
 21
104.2139541699
 31
0.0
  0
LINE
  5
AD
330
1F
100
AcDbEntity
  8
0
  6
Continuous
 62
     7
370
    25
100
AcDbLine
 10
812.3477672028
 20
104.2139541699
 30
0.0
 11
812.3477672028
 21
399.2139541699
 31
0.0
  0
LINE
  5
AE
330
1F
100
AcDbEntity
  8
0
  6
Continuous
 62
     7
370
    25
100
AcDbLine
 10
812.3477672028
 20
-190.7860458301
 30
0.0
 11
812.3477672028
 21
104.2139541699
 31
0.0
  0
LINE
  5
AF
330
1F
100
AcDbEntity
  8
0
  6
Continuous
 62
     7
370
    25
100
AcDbLine
 10
846.3477672028
 20
104.2139541699
 30
0.0
 11
846.3477672028
 21
354.2139541699
 31
0.0
  0
LINE
  5
B0
330
1F
100
AcDbEntity
  8
0
  6
Continuous
 62
     7
370
    25
100
AcDbLine
 10
846.3477672028
 20
-145.7860458301
 30
0.0
 11
846.3477672028
 21
104.2139541699
 31
0.0
  0
LINE
  5
B1
330
1F
100
AcDbEntity
  8
0
  6
Continuous
 62
     7
370
    25
100
AcDbLine
 10
886.3477672028
 20
104.2139541699
 30
0.0
 11
886.3477672028
 21
354.2139541699
 31
0.0
  0
LINE
  5
B2
330
1F
100
AcDbEntity
  8
0
  6
Continuous
 62
     7
370
    25
100
AcDbLine
 10
886.3477672028
 20
-145.7860458301
 30
0.0
 11
886.3477672028
 21
104.2139541699
 31
0.0
  0
LINE
  5
B3
330
1F
100
AcDbEntity
  8
0
  6
Continuous
 62
     7
370
    25
100
AcDbLine
 10
980.7401921464
 20
-324.1130642084
 30
0.0
 11
938.3137852752
 21
-299.6208208538
 31
0.0
  0
LINE
  5
B4
330
1F
100
AcDbEntity
  8
0
  6
Continuous
 62
     7
370
    25
100
AcDbLine
 10
643.3377591475
 20
-810.5896496584
 30
0.0
 11
685.7641660187
 21
-835.081893013
 31
0.0
  0
LINE
  5
B5
330
1F
100
AcDbEntity
  8
0
  6
Continuous
 62
     7
370
    25
100
AcDbLine
 10
891.7739832305
 20
-324.7140817599
 30
0.0
 11
863.4897119831
 21
-308.3859195234
 31
0.0
  0
LINE
  5
B6
330
1F
100
AcDbEntity
  8
0
  6
Continuous
 62
     7
370
    25
100
AcDbLine
 10
613.5100288241
 20
-741.4103507138
 30
0.0
 11
641.7943000715
 21
-757.7385129502
 31
0.0
  0
LINE
  5
B7
330
1F
100
AcDbEntity
  8
0
  6
Continuous
 62
     7
370
    25
100
AcDbLine
 10
875.360837804
 20
-313.1915961105
 30
0.0
 11
871.7742645654
 21
-313.1684899293
 31
0.0
  0
LINE
  5
B8
330
1F
100
AcDbEntity
  8
0
  6
Continuous
 62
     7
370
    25
100
AcDbLine
 10
621.7945814064
 20
-746.1929211197
 30
0.0
 11
623.6081689408
 21
-749.2872613961
 31
0.0
  0
LWPOLYLINE
  5
B9
330
1F
100
AcDbEntity
  8
0
  6
Continuous
 62
     7
370
    25
100
AcDbPolyline
 90
       93
 70
   128
 43
0.0
 10
980.7401921464
 20
-324.1130642084
 10
984.5214189619
 20
-326.4108111249
 10
989.3889017003
 20
-329.728986685
 10
994.0703133556
 20
-333.3449352489
 10
998.5600750013
 20
-337.2543476223
 10
1002.8528361033
 20
-341.4525648847
 10
1006.9434808974
 20
-345.9345839412
 10
1010.8271344846
 20
-350.6950634851
 10
1014.4991686417
 20
-355.7283303628
 10
1017.9552073362
 20
-361.0283863351
 10
1021.1911319414
 20
-366.5889152252
 10
1024.2030861449
 20
-372.4032904456
 10
1026.9874805438
 20
-378.4645828957
 10
1029.5409969228
 20
-384.7655692185
 10
1031.8605922082
 20
-391.2987404097
 10
1033.9435020943
 20
-398.0563107656
 10
1035.7872443382
 20
-405.030227162
 10
1037.3896217174
 20
-412.2121786508
 10
1038.7487246484
 20
-419.5936063649
 10
1039.8629334626
 20
-427.1657137173
 10
1040.7309203363
 20
-434.9194768845
 10
1041.3516508731
 20
-442.8456555604
 10
1041.7243853368
 20
-450.9348039683
 10
1041.8486795326
 20
-459.1772821169
 10
1041.7243853368
 20
-467.5632672894
 10
1041.3516508731
 20
-476.0827657487
 10
1040.7309203363
 20
-484.7256246475
 10
1039.8629334626
 20
-493.4815441276
 10
1038.7487246484
 20
-502.3400895942
 10
1037.3896217174
 20
-511.2907041513
 10
1035.7872443382
 20
-520.3227211824
 10
1033.9435020943
 20
-529.4253770621
 10
1031.8605922082
 20
-538.5878239833
 10
1029.5409969228
 20
-547.799142885
 10
1026.9874805438
 20
-557.0483564642
 10
1024.2030861449
 20
-566.3244422585
 10
1021.1911319414
 20
-575.616345781
 10
1017.9552073362
 20
-584.9129936947
 10
1014.4991686417
 20
-594.2033070087
 10
1010.8271344846
 20
-603.4762142809
 10
1006.9434808974
 20
-612.7206648126
 10
1002.8528361033
 20
-621.9256418173
 10
998.5600750012
 20
-631.08017555
 10
994.0703133556
 20
-640.1733563799
 10
989.3889017003
 20
-649.1943477915
 10
984.5214189619
 20
-658.1323992988
 10
979.4736658118
 20
-666.976859257
 10
974.2516577526
 20
-675.717187556
 10
968.8616179501
 20
-684.3429681814
 10
963.3099698166
 20
-692.8439216274
 10
957.603329356
 20
-701.2099171472
 10
951.7484972797
 20
-709.4309848257
 10
945.7524509017
 20
-717.4973274613
 10
939.6223358237
 20
-725.399332241
 10
933.3654574198
 20
-733.1275821965
 10
926.9892721301
 20
-740.672867426
 10
920.5013785753
 20
-748.0261960708
 10
913.9095085005
 20
-755.17880503
 10
907.2215175621
 20
-762.1221704044
 10
900.4453759651
 20
-768.8480176542
 10
893.5891589656
 20
-775.3483314603
 10
886.661037247
 20
-781.6153652757
 10
879.6692671827
 20
-787.6416505579
 10
872.6221809974
 20
-793.4200056688
 10
865.5281768368
 20
-798.9435444334
 10
858.3957087597
 20
-804.2056843462
 10
851.2332766631
 20
-809.2001544156
 10
844.0494161528
 20
-813.9210026373
 10
836.8526883709
 20
-818.3626030872
 10
829.6516697942
 20
-822.519662626
 10
822.4549420124
 20
-826.3872272075
 10
815.271081502
 20
-829.9606877818
 10
808.1086494054
 20
-833.2357857884
 10
800.9761813283
 20
-836.208618231
 10
793.8821771677
 20
-838.8756423292
 10
786.8350909824
 20
-841.2336797399
 10
779.8433209181
 20
-843.2799203454
 10
772.9151991995
 20
-845.011925602
 10
766.0589822
 20
-846.4276314463
 10
759.282840603
 20
-847.525350755
 10
752.5948496646
 20
-848.3037753553
 10
746.0029795898
 20
-848.7619775837
 10
739.515086035
 20
-848.899411392
 10
733.1389007453
 20
-848.7159129978
 10
726.8820223414
 20
-848.2117010796
 10
720.7519072634
 20
-847.3873765162
 10
714.7558608854
 20
-846.2439216709
 10
708.9010288091
 20
-844.7826992203
 10
703.1943883485
 20
-843.0054505309
 10
697.642740215
 20
-840.9142935835
 10
692.2527004125
 20
-838.5117204494
 10
687.0306923533
 20
-835.8005943203
 10
685.7641660187
 20
-835.081893013
  0
LWPOLYLINE
  5
BA
330
1F
100
AcDbEntity
  8
0
  6
Continuous
 62
     7
370
    25
100
AcDbPolyline
 90
      128
 70
   128
 43
0.0
 10
826.7759615994
 20
-297.0763824723
 10
830.1957741262
 20
-295.8270715375
 10
837.2428603115
 20
-293.4690341268
 10
844.2346303758
 20
-291.4227935214
 10
851.1627520945
 20
-289.6907882648
 10
858.018969094
 20
-288.2750824204
 10
864.7951106909
 20
-287.1773631117
 10
871.4831016294
 20
-286.3989385115
 10
878.0749717041
 20
-285.9407362831
 10
884.5628652589
 20
-285.8033024748
 10
890.9390505486
 20
-285.986800869
 10
897.1959289525
 20
-286.4910127872
 10
903.3260440305
 20
-287.3153373505
 10
909.3220904085
 20
-288.4587921959
 10
915.1769224848
 20
-289.9200146465
 10
920.8835629454
 20
-291.6972633359
 10
926.4352110789
 20
-293.7884202833
 10
931.8252508814
 20
-296.1909934174
 10
937.0472589406
 20
-298.9021195465
 10
942.0950120908
 20
-301.9185677702
 10
946.9624948291
 20
-305.2367433303
 10
951.6439064844
 20
-308.8526918942
 10
956.1336681301
 20
-312.7621042676
 10
960.4264292321
 20
-316.96032153
 10
964.5170740262
 20
-321.4423405866
 10
968.4007276134
 20
-326.2028201304
 10
972.0727617705
 20
-331.2360870081
 10
975.528800465
 20
-336.5361429804
 10
978.7647250702
 20
-342.0966718705
 10
981.7766792737
 20
-347.911047091
 10
984.5610736726
 20
-353.972339541
 10
987.1145900516
 20
-360.2733258638
 10
989.434185337
 20
-366.806497055
 10
991.5170952231
 20
-373.5640674109
 10
993.360837467
 20
-380.5379838073
 10
994.9632148462
 20
-387.7199352962
 10
996.3223177772
 20
-395.1013630102
 10
997.4365265914
 20
-402.6734703626
 10
998.3045134651
 20
-410.4272335298
 10
998.9252440019
 20
-418.3534122058
 10
999.2979784656
 20
-426.4425606136
 10
999.4222726614
 20
-434.6850387622
 10
999.2979784656
 20
-443.0710239347
 10
998.9252440019
 20
-451.590522394
 10
998.3045134651
 20
-460.2333812929
 10
997.4365265914
 20
-468.9893007729
 10
996.3223177772
 20
-477.8478462396
 10
994.9632148462
 20
-486.7984607967
 10
993.360837467
 20
-495.8304778277
 10
991.5170952231
 20
-504.9331337074
 10
989.434185337
 20
-514.0955806287
 10
987.1145900516
 20
-523.3068995303
 10
984.5610736726
 20
-532.5561131096
 10
981.7766792737
 20
-541.8321989038
 10
978.7647250702
 20
-551.1241024263
 10
975.528800465
 20
-560.42075034
 10
972.0727617705
 20
-569.711063654
 10
968.4007276134
 20
-578.9839709262
 10
964.5170740262
 20
-588.2284214579
 10
960.4264292321
 20
-597.4333984626
 10
956.1336681301
 20
-606.5879321953
 10
951.6439064844
 20
-615.6811130252
 10
946.9624948291
 20
-624.7021044368
 10
942.0950120908
 20
-633.6401559441
 10
937.0472589406
 20
-642.4846159023
 10
931.8252508814
 20
-651.2249442013
 10
926.4352110789
 20
-659.8507248267
 10
920.8835629454
 20
-668.3516782727
 10
915.1769224848
 20
-676.7176737925
 10
909.3220904085
 20
-684.938741471
 10
903.3260440305
 20
-693.0050841066
 10
897.1959289525
 20
-700.9070888864
 10
890.9390505486
 20
-708.6353388418
 10
884.5628652589
 20
-716.1806240713
 10
878.0749717041
 20
-723.5339527161
 10
871.4831016294
 20
-730.6865616753
 10
864.7951106909
 20
-737.6299270497
 10
858.0189690939
 20
-744.3557742995
 10
851.1627520944
 20
-750.8560881056
 10
844.2346303758
 20
-757.123121921
 10
837.2428603115
 20
-763.1494072032
 10
830.1957741262
 20
-768.9277623141
 10
823.1017699656
 20
-774.4513010787
 10
815.9693018885
 20
-779.7134409915
 10
808.8068697919
 20
-784.707911061
 10
801.6230092816
 20
-789.4287592826
 10
794.4262814998
 20
-793.8703597325
 10
787.225262923
 20
-798.0274192714
 10
780.0285351412
 20
-801.8949838528
 10
772.8446746308
 20
-805.4684444271
 10
765.6822425342
 20
-808.7435424337
 10
758.5497744572
 20
-811.7163748764
 10
751.4557702965
 20
-814.3833989746
 10
744.4086841112
 20
-816.7414363853
 10
737.416914047
 20
-818.7876769907
 10
730.4887923283
 20
-820.5196822473
 10
723.6325753288
 20
-821.9353880917
 10
716.8564337318
 20
-823.0331074004
 10
710.1684427934
 20
-823.8115320006
 10
703.5765727187
 20
-824.269734229
 10
697.0886791638
 20
-824.4071680373
 10
690.7124938741
 20
-824.2236696431
 10
684.4556154702
 20
-823.7194577249
 10
678.3255003922
 20
-822.8951331616
 10
672.3294540142
 20
-821.7516783162
 10
666.4746219379
 20
-820.2904558656
 10
660.7679814774
 20
-818.5132071762
 10
655.2163333438
 20
-816.4220502288
 10
649.8262935413
 20
-814.0194770947
 10
644.6042854822
 20
-811.3083509656
 10
639.556532332
 20
-808.2919027419
 10
634.6890495936
 20
-804.9737271818
 10
630.0076379383
 20
-801.3577786179
 10
625.5178762927
 20
-797.4483662445
 10
621.2251151906
 20
-793.2501489821
 10
617.1344703966
 20
-788.7681299255
 10
613.2508168093
 20
-784.0076503817
 10
609.5787826522
 20
-778.974383504
 10
606.1227439577
 20
-773.6743275317
 10
602.8868193525
 20
-768.1137986416
 10
599.874865149
 20
-762.2994234211
 10
597.0904707501
 20
-756.2381309711
 10
594.5369543711
 20
-749.9371446483
 10
592.2173590857
 20
-743.4039734571
 10
590.1344491996
 20
-736.6464031012
 10
588.2907069557
 20
-729.6724867048
 10
586.6883295766
 20
-722.4905352159
 10
585.3563544088
 20
-715.2727205139
  0
LWPOLYLINE
  5
BB
330
1F
100
AcDbEntity
  8
0
  6
Continuous
 62
     7
370
    25
100
AcDbPolyline
 90
      106
 70
   128
 43
0.0
 10
875.360837804
 20
-313.1915961105
 10
876.5053462867
 20
-313.204667488
 10
882.5345021519
 20
-313.4659704619
 10
888.4412907598
 20
-314.0496934944
 10
894.2178306631
 20
-314.955057722
 10
899.8564142059
 20
-316.1808551142
 10
905.3495178076
 20
-317.7254500857
 10
910.6898120023
 20
-319.5867816782
 10
915.8701712179
 20
-321.762366311
 10
920.8836832845
 20
-324.2493010945
 10
925.7236586563
 20
-327.0442677034
 10
930.3836393385
 20
-330.1435368046
 10
934.8574075038
 20
-333.5429730334
 10
939.1389937886
 20
-337.2380405108
 10
943.2226852584
 20
-341.2238088964
 10
947.1030330304
 20
-345.4949599662
 10
950.7748595439
 20
-350.0457947097
 10
954.2332654688
 20
-354.870240933
 10
957.4736362429
 20
-359.9618613619
 10
960.4916482287
 20
-365.3138622307
 10
963.2832744832
 20
-370.9191023472
 10
965.8447901303
 20
-376.7701026211
 10
968.1727773312
 20
-382.8590560439
 10
970.2641298452
 20
-389.1778381049
 10
972.1160571737
 20
-395.7180176329
 10
973.7260882841
 20
-402.4708680448
 10
975.0920749065
 20
-409.4273789904
 10
976.2121944006
 20
-416.5782683745
 10
977.0849521874
 20
-423.913994742
 10
977.7091837432
 20
-431.4247700094
 10
978.0840561538
 20
-439.1005725247
 10
978.2090692258
 20
-446.9311604395
 10
978.0840561538
 20
-454.9060853751
 10
977.7091837432
 20
-463.0147063628
 10
977.0849521874
 20
-471.2462040435
 10
976.2121944006
 20
-479.5895951029
 10
975.0920749065
 20
-488.033746927
 10
973.7260882841
 20
-496.5673924567
 10
972.1160571737
 20
-505.1791452208
 10
970.2641298452
 20
-513.8575145295
 10
968.1727773312
 20
-522.5909208065
 10
965.8447901303
 20
-531.3677110393
 10
963.2832744832
 20
-540.1761743279
 10
960.4916482287
 20
-549.0045575113
 10
957.4736362429
 20
-557.8410808488
 10
954.2332654688
 20
-566.6739537386
 10
950.7748595439
 20
-575.4913904497
 10
947.1030330304
 20
-584.2816258474
 10
943.2226852584
 20
-593.0329310921
 10
939.1389937886
 20
-601.7336292886
 10
934.8574075038
 20
-610.3721110669
 10
930.3836393385
 20
-618.9368500727
 10
925.7236586563
 20
-627.4164183468
 10
920.8836832844
 20
-635.7995015736
 10
915.8701712179
 20
-644.0749141778
 10
910.6898120023
 20
-652.2316142495
 10
905.3495178076
 20
-660.258718277
 10
899.8564142059
 20
-668.1455156695
 10
894.2178306631
 20
-675.8814830473
 10
888.4412907598
 20
-683.456298284
 10
882.5345021519
 20
-690.8598542789
 10
876.5053462867
 20
-698.0822724432
 10
870.3618678866
 20
-705.1139158807
 10
864.1122642147
 20
-711.9454022468
 10
857.7648741377
 20
-718.5676162667
 10
851.3281669988
 20
-724.9717218989
 10
844.8107313173
 20
-731.1491741243
 10
838.2212633289
 20
-737.0917303482
 10
831.5685553823
 20
-742.7914613986
 10
824.8614842072
 20
-748.2407621056
 10
818.1089990707
 20
-753.4323614496
 10
811.3201098357
 20
-758.3593322627
 10
804.5038749391
 20
-763.0151004716
 10
797.6693893055
 20
-767.3934538697
 10
790.8257722114
 20
-771.4885504058
 10
783.9821551172
 20
-775.2949259791
 10
777.1476694836
 20
-778.8075017304
 10
770.3314345871
 20
-782.0215908184
 10
763.542545352
 20
-784.9329046735
 10
756.7900602155
 20
-787.5375587202
 10
750.0829890405
 20
-789.83207756
 10
743.4302810938
 20
-791.8133996091
 10
736.8408131054
 20
-793.4788811829
 10
730.3233774239
 20
-794.826300024
 10
723.886670285
 20
-795.853858267
 10
717.539280208
 20
-796.5601848375
 10
711.2896765362
 20
-796.9443372819
 10
705.146198136
 20
-797.0058030241
 10
699.1170422708
 20
-796.7445000502
 10
693.2102536629
 20
-796.1607770177
 10
687.4337137596
 20
-795.2554127901
 10
681.7951302169
 20
-794.0296153979
 10
676.3020266152
 20
-792.4850204264
 10
670.9617324205
 20
-790.6236888339
 10
665.7813732048
 20
-788.4481042011
 10
660.7678611383
 20
-785.9611694176
 10
655.9278857664
 20
-783.1662028087
 10
651.2679050842
 20
-780.0669337075
 10
646.7941369189
 20
-776.6674974787
 10
642.5125506341
 20
-772.9724300013
 10
638.4288591643
 20
-768.9866616157
 10
634.5485113923
 20
-764.7155105459
 10
630.8766848788
 20
-760.1646758024
 10
627.4182789539
 20
-755.3402295791
 10
624.1779081799
 20
-750.2486091502
 10
623.6081689408
 20
-749.2872613961
  0
LWPOLYLINE
  5
BC
330
1F
100
AcDbEntity
  8
0
  6
Continuous
 62
     7
370
    25
100
AcDbPolyline
 90
      168
 70
   128
 43
0.0
 10
561.7231751069
 20
-626.9491490965
 10
561.8482789291
 20
-619.1983849257
 10
562.223413325
 20
-611.3141492964
 10
562.848047334
 20
-603.3076014624
 10
563.7212968564
 20
-595.1900737968
 10
564.8419259051
 20
-586.9730557525
 10
566.2083483552
 20
-578.6681775994
 10
567.8186301883
 20
-570.287193964
 10
569.6704922307
 20
-561.8419671914
 10
571.7613133786
 20
-553.3444505557
 10
574.0881343086
 20
-544.8066713415
 10
576.6476616659
 20
-536.2407138206
 10
579.4362727256
 20
-527.6587021478
 10
582.4500205206
 20
-519.0727832012
 10
585.684639428
 20
-510.4951093887
 10
589.1355512065
 20
-501.9378214486
 10
592.7978714762
 20
-493.4130312649
 10
596.6664166323
 20
-484.932804725
 10
600.7357111819
 20
-476.5091446411
 10
604.9999954935
 20
-468.1539737622
 10
609.4532339494
 20
-459.8791178984
 10
614.0891234888
 20
-451.6962891827
 10
618.9011025283
 20
-443.6170694941
 10
623.8823602496
 20
-435.6528940648
 10
629.0258462396
 20
-427.8150352944
 10
634.3242804689
 20
-420.1145867956
 10
639.7701635964
 20
-412.5624476921
 10
645.3557875836
 20
-405.1693071923
 10
651.0732466042
 20
-397.9456294598
 10
656.9144482343
 20
-390.9016388027
 10
662.8711249064
 20
-384.0473052021
 10
668.9348456105
 20
-377.3923302008
 10
675.0970278282
 20
-370.9461331715
 10
681.3489496796
 20
-364.7178379855
 10
687.6817622684
 20
-358.716260098
 10
694.0865022066
 20
-352.9498940714
 10
700.554104301
 20
-347.4269015521
 10
707.075414384
 20
-342.1550997183
 10
713.6412022706
 20
-337.141950216
 10
720.242174822
 20
-332.3945485978
 10
726.8689890999
 20
-327.9196142797
 10
733.5122655897
 20
-323.7234810309
 10
740.1626014764
 20
-319.8120880087
 10
746.8105839531
 20
-316.1909713527
 10
753.4468035442
 20
-312.8652563484
 10
760.0618674228
 20
-309.8396501736
 10
766.6464127058
 20
-307.1184352355
 10
773.1911197057
 20
-304.7054631096
 10
779.6867251214
 20
-302.604149088
 10
786.1240351501
 20
-300.8174673458
 10
792.493938499
 20
-299.3479467312
 10
798.7874192824
 20
-298.1976671862
 10
804.995569782
 20
-297.3682568031
 10
811.1096030549
 20
-296.8608895193
 10
817.1208653708
 20
-296.6762834566
 10
823.0208484601
 20
-296.8146999041
 10
828.8012015564
 20
-297.275942949
 10
834.4537432163
 20
-298.0593597532
 10
839.9704728992
 20
-299.1638414779
 10
845.3435822912
 20
-300.5878248527
 10
850.5654663567
 20
-302.3292943883
 10
855.6287341028
 20
-304.3857852294
 10
860.5262190401
 20
-306.7543866431
 10
865.2509893265
 20
-309.431746139
 10
869.7963575779
 20
-312.4140742142
 10
874.1558903338
 20
-315.6971497167
 10
878.3234171631
 20
-319.2763258204
 10
882.2930393977
 20
-323.1465366016
 10
886.0591384811
 20
-327.3023042097
 10
889.6163839212
 20
-331.7377466206
 10
892.9597408349
 20
-336.4465859613
 10
896.0844770744
 20
-341.4221573964
 10
898.986169925
 20
-346.6574185609
 10
901.6607123648
 20
-352.1449595281
 10
904.1043188781
 20
-357.8770132974
 10
906.3135308132
 20
-363.8454667876
 10
908.2852212777
 20
-370.0418723202
 10
910.0165995641
 20
-376.4574595761
 10
911.5052151001
 20
-383.083148009
 10
912.7489609168
 20
-389.9095596978
 10
913.7460766312
 20
-396.9270326201
 10
914.4951509375
 20
-404.1256343277
 10
914.9951236047
 20
-411.4951760049
 10
915.2452869774
 20
-419.0252268895
 10
915.2452869774
 20
-426.7051290366
 10
914.9951236047
 20
-434.5240124034
 10
914.4951509375
 20
-442.470810235
 10
913.7460766312
 20
-450.5342747275
 10
912.7489609168
 20
-458.7029929487
 10
911.5052151001
 20
-466.9654029914
 10
910.0165995641
 20
-475.3098103382
 10
908.2852212777
 20
-483.7244044135
 10
906.3135308132
 20
-492.1972753005
 10
904.1043188781
 20
-500.7164305977
 10
901.6607123648
 20
-509.2698123936
 10
898.986169925
 20
-517.8453143327
 10
896.0844770744
 20
-526.430798751
 10
892.9597408349
 20
-535.0141138552
 10
889.6163839212
 20
-543.5831109228
 10
886.0591384811
 20
-552.1256614965
 10
882.2930393977
 20
-560.6296745514
 10
878.3234171631
 20
-569.0831136078
 10
874.1558903338
 20
-577.4740137682
 10
869.7963575779
 20
-585.7904986515
 10
865.2509893265
 20
-594.0207972036
 10
860.5262190401
 20
-602.153260357
 10
855.6287341028
 20
-610.1763775197
 10
850.5654663567
 20
-618.0787928664
 10
845.3435822912
 20
-625.8493214119
 10
839.9704728992
 20
-633.476964842
 10
834.4537432163
 20
-640.9509270804
 10
828.8012015564
 20
-648.2606295693
 10
823.0208484601
 20
-655.3957262422
 10
817.1208653708
 20
-662.3461181676
 10
811.1096030549
 20
-669.1019678431
 10
804.995569782
 20
-675.6537131188
 10
798.7874192824
 20
-681.992080732
 10
792.493938499
 20
-688.108099432
 10
786.1240351501
 20
-693.9931126785
 10
779.6867251214
 20
-699.638790893
 10
773.1911197057
 20
-705.0371432496
 10
766.6464127058
 20
-710.1805289841
 10
760.0618674228
 20
-715.0616682091
 10
753.4468035442
 20
-719.6736522179
 10
746.8105839531
 20
-724.0099532629
 10
740.1626014764
 20
-728.0644337949
 10
733.5122655897
 20
-731.8313551499
 10
726.8689890999
 20
-735.3053856722
 10
720.242174822
 20
-738.4816082599
 10
713.6412022706
 20
-741.3555273252
 10
707.075414384
 20
-743.923075157
 10
700.554104301
 20
-746.1806176785
 10
694.0865022066
 20
-748.1249595906
 10
687.6817622684
 20
-749.7533488949
 10
681.3489496796
 20
-751.0634807884
 10
675.0970278282
 20
-752.0535009258
 10
668.9348456105
 20
-752.7220080443
 10
662.8711249064
 20
-753.068055947
 10
656.9144482343
 20
-753.0911548417
 10
651.0732466042
 20
-752.7912720345
 10
645.3557875836
 20
-752.1688319759
 10
639.7701635964
 20
-751.2247156603
 10
634.3242804689
 20
-749.9602593787
 10
629.0258462396
 20
-748.3772528276
 10
623.8823602496
 20
-746.4779365758
 10
618.9011025283
 20
-744.2649988931
 10
614.0891234888
 20
-741.7415719451
 10
609.4532339494
 20
-738.9112273607
 10
604.9999954935
 20
-735.7779711761
 10
600.7357111819
 20
-732.346238165
 10
596.6664166323
 20
-728.6208855618
 10
592.7978714762
 20
-724.6071861865
 10
589.1355512065
 20
-720.3108209816
 10
585.684639428
 20
-715.7378709719
 10
582.4500205206
 20
-710.8948086565
 10
579.4362727256
 20
-705.7884888486
 10
576.6476616659
 20
-700.426138973
 10
574.0881343086
 20
-694.8153488362
 10
571.7613133786
 20
-688.9640598843
 10
569.6704922307
 20
-682.8805539623
 10
567.8186301883
 20
-676.5734415928
 10
566.2083483552
 20
-670.0516497879
 10
564.8419259051
 20
-663.3244094147
 10
563.7212968564
 20
-656.4012421297
 10
562.848047334
 20
-649.2919469019
 10
562.223413325
 20
-642.0065861437
 10
561.8482789291
 20
-634.5554714687
 10
561.7231751069
 20
-626.9491490965
  0
LWPOLYLINE
  5
BD
330
1F
100
AcDbEntity
  8
0
  6
Continuous
 62
     7
370
    25
100
AcDbPolyline
 90
      152
 70
   128
 43
0.0
 10
593.8258229728
 20
-608.4166849581
 10
593.9510516561
 20
-601.3947710851
 10
594.3265209123
 20
-594.2404274754
 10
594.951580735
 20
-586.9660396128
 10
595.8251490308
 20
-579.5842007996
 10
596.9457134924
 20
-572.1076903556
 10
598.3113342168
 20
-564.5494514946
 10
599.9196470635
 20
-556.9225689171
 10
601.7678677474
 20
-549.2402461588
 10
603.8527966587
 20
-541.5157827323
 10
606.1708244024
 20
-533.7625511034
 10
608.7179380463
 20
-525.9939735413
 10
611.4897280685
 20
-518.2234988814
 10
614.4813959912
 20
-510.4645792436
 10
617.6877626873
 20
-502.7306467439
 10
621.1032773466
 20
-495.0350902409
 10
624.7220270857
 20
-487.3912321572
 10
628.5377471835
 20
-479.8123054163
 10
632.5438319272
 20
-472.3114305332
 10
636.7333460479
 20
-464.9015929009
 10
641.0990367266
 20
-457.5956203104
 10
645.6333461503
 20
-450.406160743
 10
650.328424596
 20
-443.3456604746
 10
655.1761440201
 20
-436.4263425289
 10
660.1681121291
 20
-429.660185517
 10
665.2956869088
 20
-423.0589029002
 10
670.5499915848
 20
-416.6339227121
 10
675.92192999
 20
-410.3963677743
 10
681.4022023117
 20
-404.3570364408
 10
686.9813211912
 20
-398.5263839041
 10
692.6496281483
 20
-392.9145040954
 10
698.3973103019
 20
-387.5311122102
 10
704.2144173577
 20
-382.3855278893
 10
710.0908788343
 20
-377.4866590847
 10
716.0165214967
 20
-372.8429866389
 10
721.9810869685
 20
-368.4625496024
 10
727.9742494905
 20
-364.3529313166
 10
733.9856337969
 20
-360.5212462864
 10
740.0048330765
 20
-356.9741278625
 10
746.0214269892
 20
-353.7177167591
 10
752.0249997049
 20
-350.7576504223
 10
758.005157936
 20
-348.0990532709
 10
763.9515489294
 20
-345.7465278252
 10
769.8538783893
 20
-343.7041467391
 10
775.7019282986
 20
-341.9754457498
 10
781.485574608
 20
-340.5634175564
 10
787.1948047629
 20
-339.4705066391
 10
792.8197350365
 20
-338.6986050277
 10
798.3506276405
 20
-338.2490490257
 10
803.7779075835
 20
-338.1226168972
 10
809.0921792461
 20
-338.3195275194
 10
814.2842426476
 20
-338.8394400039
 10
819.3451093718
 20
-339.6814542865
 10
824.2660181283
 20
-340.8441126859
 10
829.0384499195
 20
-342.3254024266
 10
833.6541427889
 20
-344.1227591238
 10
838.1051061238
 20
-346.2330712227
 10
842.3836344886
 20
-348.6526853853
 10
846.4823209642
 20
-351.3774128147
 10
850.3940699712
 20
-354.4025365069
 10
854.1121095529
 20
-357.7228194168
 10
857.6300030995
 20
-361.3325135244
 10
860.9416604907
 20
-365.2253697857
 10
864.0413486389
 20
-369.3946489512
 10
866.9237014142
 20
-373.8331332322
 10
869.5837289342
 20
-378.5331387968
 10
872.0168262023
 20
-383.4865290713
 10
874.2187810799
 20
-388.6847288269
 10
876.1857815785
 20
-394.1187390243
 10
877.9144224586
 20
-399.7791523931
 10
879.4017111252
 20
-405.6561697175
 10
880.6450728083
 20
-411.7396168002
 10
881.6423550202
 20
-418.0189620763
 10
882.3918312822
 20
-424.483334845
 10
882.892204113
 20
-431.1215440888
 10
883.1426072754
 20
-437.9220978475
 10
883.1426072754
 20
-444.8732231127
 10
882.892204113
 20
-451.9628862088
 10
882.3918312822
 20
-459.178813626
 10
881.6423550202
 20
-466.5085132677
 10
880.6450728083
 20
-473.9392960766
 10
879.4017111252
 20
-481.458298002
 10
877.9144224586
 20
-489.0525022695
 10
876.1857815785
 20
-496.7087619158
 10
874.2187810799
 20
-504.4138225482
 10
872.0168262023
 20
-512.1543452906
 10
869.5837289342
 20
-519.9169298755
 10
866.9237014142
 20
-527.6881378422
 10
864.0413486389
 20
-535.4545158014
 10
860.9416604907
 20
-543.2026187253
 10
857.6300030995
 20
-550.9190332239
 10
854.1121095529
 20
-558.5904007653
 10
850.3940699712
 20
-566.2034408023
 10
846.4823209642
 20
-573.7449737634
 10
842.3836344886
 20
-581.201943869
 10
838.1051061238
 20
-588.5614417331
 10
833.6541427889
 20
-595.8107267124
 10
829.0384499195
 20
-602.9372489622
 10
824.2660181283
 20
-609.9286711626
 10
819.3451093718
 20
-616.7728898767
 10
814.2842426476
 20
-623.4580565042
 10
809.0921792461
 20
-629.9725977927
 10
803.7779075835
 20
-636.305235874
 10
798.3506276405
 20
-642.4450077877
 10
792.8197350365
 20
-648.3812844601
 10
787.1948047629
 20
-654.1037891052
 10
781.485574608
 20
-659.6026150157
 10
775.7019282986
 20
-664.8682427132
 10
769.8538783893
 20
-669.8915564285
 10
763.9515489294
 20
-674.6638598823
 10
758.005157936
 20
-679.17689134
 10
752.0249997049
 20
-683.4228379148
 10
746.0214269892
 20
-687.3943490928
 10
740.0048330765
 20
-691.0845494582
 10
733.9856337969
 20
-694.4870505958
 10
727.9742494905
 20
-697.5959621509
 10
721.9810869685
 20
-700.4059020262
 10
716.0165214967
 20
-702.9120056992
 10
710.0908788343
 20
-705.1099346439
 10
704.2144173577
 20
-706.9958838413
 10
698.3973103019
 20
-708.5665883668
 10
692.6496281483
 20
-709.819329042
 10
686.9813211912
 20
-710.7519371427
 10
681.4022023117
 20
-711.3627981528
 10
675.92192999
 20
-711.6508545596
 10
670.5499915848
 20
-711.6156076846
 10
665.2956869088
 20
-711.2571185465
 10
660.1681121291
 20
-710.576007756
 10
655.1761440201
 20
-709.573454441
 10
650.328424596
 20
-708.2511942056
 10
645.6333461503
 20
-706.6115161252
 10
641.0990367266
 20
-704.657258784
 10
636.7333460479
 20
-702.3918053607
 10
632.5438319272
 20
-699.8190777714
 10
628.5377471835
 20
-696.9435298806
 10
624.7220270857
 20
-693.77013979
 10
621.1032773466
 20
-690.3044012213
 10
617.6877626873
 20
-686.5523140049
 10
614.4813959912
 20
-682.5203736933
 10
611.4897280685
 20
-678.2155603163
 10
608.7179380462
 20
-673.6453262972
 10
606.1708244024
 20
-668.8175835508
 10
603.8527966587
 20
-663.7406897873
 10
601.7678677474
 20
-658.423434043
 10
599.9196470635
 20
-652.8750214646
 10
598.3113342168
 20
-647.1050573744
 10
596.9457134924
 20
-641.1235306404
 10
595.8251490308
 20
-634.9407963851
 10
594.951580735
 20
-628.5675580576
 10
594.3265209123
 20
-622.0148489049
 10
593.9510516561
 20
-615.2940128709
 10
593.8258229728
 20
-608.4166849581
  0
LWPOLYLINE
  5
BE
330
1F
100
AcDbEntity
  8
0
  6
Continuous
 62
     7
370
    25
100
AcDbPolyline
 90
       86
 70
   128
 43
0.0
 10
891.7739832305
 20
-324.7140817599
 10
893.535260574
 20
-325.7599083755
 10
898.0806288254
 20
-328.7422364507
 10
902.4401615813
 20
-332.0253119532
 10
906.6076884106
 20
-335.6044880568
 10
910.5773106451
 20
-339.474698838
 10
914.3434097285
 20
-343.6304664462
 10
917.9006551687
 20
-348.065908857
 10
921.2440120824
 20
-352.7747481978
 10
924.3687483219
 20
-357.7503196329
 10
927.2704411724
 20
-362.9855807974
 10
929.9449836122
 20
-368.4731217646
 10
932.3885901256
 20
-374.2051755338
 10
934.5978020607
 20
-380.173629024
 10
936.5694925251
 20
-386.3700345566
 10
938.3008708115
 20
-392.7856218125
 10
939.7894863475
 20
-399.4113102454
 10
941.0332321643
 20
-406.2377219342
 10
942.0303478787
 20
-413.2551948565
 10
942.779422185
 20
-420.4537965642
 10
943.2793948522
 20
-427.8233382414
 10
943.5295582249
 20
-435.353389126
 10
943.5295582249
 20
-443.0332912731
 10
943.2793948522
 20
-450.8521746399
 10
942.779422185
 20
-458.7989724714
 10
942.0303478787
 20
-466.8624369639
 10
941.0332321643
 20
-475.0311551851
 10
939.7894863475
 20
-483.2935652279
 10
938.3008708115
 20
-491.6379725747
 10
936.5694925251
 20
-500.05256665
 10
934.5978020607
 20
-508.5254375369
 10
932.3885901256
 20
-517.0445928342
 10
929.9449836122
 20
-525.5979746301
 10
927.2704411724
 20
-534.1734765692
 10
924.3687483219
 20
-542.7589609874
 10
921.2440120824
 20
-551.3422760917
 10
917.9006551687
 20
-559.9112731592
 10
914.3434097285
 20
-568.453823733
 10
910.5773106451
 20
-576.9578367878
 10
906.6076884106
 20
-585.4112758443
 10
902.4401615813
 20
-593.8021760046
 10
898.0806288254
 20
-602.118660888
 10
893.535260574
 20
-610.34895944
 10
888.8104902876
 20
-618.4814225935
 10
883.9130053502
 20
-626.5045397561
 10
878.8497376042
 20
-634.4069551028
 10
873.6278535387
 20
-642.1774836484
 10
868.2547441467
 20
-649.8051270785
 10
862.7380144637
 20
-657.2790893169
 10
857.0854728038
 20
-664.5887918057
 10
851.3051197075
 20
-671.7238884786
 10
845.4051366183
 20
-678.6742804041
 10
839.3938743024
 20
-685.4301300795
 10
833.2798410294
 20
-691.9818753552
 10
827.0716905299
 20
-698.3202429684
 10
820.7782097465
 20
-704.4362616685
 10
814.4083063975
 20
-710.3212749149
 10
807.9709963689
 20
-715.9669531295
 10
801.4753909531
 20
-721.3653054861
 10
794.9306839533
 20
-726.5086912206
 10
788.3461386703
 20
-731.3898304456
 10
781.7310747916
 20
-736.0018144544
 10
775.0948552006
 20
-740.3381154994
 10
768.4468727238
 20
-744.3925960313
 10
761.7965368372
 20
-748.1595173864
 10
755.1532603474
 20
-751.6335479086
 10
748.5264460695
 20
-754.8097704964
 10
741.925473518
 20
-757.6836895617
 10
735.3596856315
 20
-760.2512373935
 10
728.8383755485
 20
-762.5087799149
 10
722.3707734541
 20
-764.4531218271
 10
715.9660335159
 20
-766.0815111314
 10
709.6332209271
 20
-767.3916430248
 10
703.3812990757
 20
-768.3816631622
 10
697.219116858
 20
-769.0501702808
 10
691.1553961538
 20
-769.3962181835
 10
685.1987194818
 20
-769.4193170781
 10
679.3575178516
 20
-769.1194342709
 10
673.640058831
 20
-768.4969942123
 10
668.0544348439
 20
-767.5528778967
 10
662.6085517164
 20
-766.2884216152
 10
657.310117487
 20
-764.7054150641
 10
652.1666314971
 20
-762.8060988123
 10
647.1853737757
 20
-760.5931611295
 10
642.3733947363
 20
-758.0697341816
 10
641.7943000715
 20
-757.7385129502
  0
LWPOLYLINE
  5
BF
330
1F
100
AcDbEntity
  8
0
  6
Continuous
 62
     7
370
    25
100
AcDbPolyline
 90
       50
 70
   128
 43
0.0
 10
658.5968041295
 20
-645.8081764796
 10
658.7220328128
 20
-638.7862626066
 10
659.097502069
 20
-631.6319189969
 10
659.7225618917
 20
-624.3575311343
 10
660.5961301875
 20
-616.9756923211
 10
661.7166946491
 20
-609.4991818771
 10
663.0823153735
 20
-601.9409430161
 10
664.6906282202
 20
-594.3140604386
 10
666.5388489041
 20
-586.6317376803
 10
668.6237778154
 20
-578.9072742537
 10
670.941805559
 20
-571.1540426249
 10
673.4889192029
 20
-563.3854650627
 10
676.2607092252
 20
-555.6149904029
 10
679.2523771479
 20
-547.8560707651
 10
682.458743844
 20
-540.1221382654
 10
685.8742585033
 20
-532.4265817623
 10
689.4930082424
 20
-524.7827236787
 10
693.3087283401
 20
-517.2037969378
 10
697.3148130839
 20
-509.7029220546
 10
701.5043272046
 20
-502.2930844224
 10
705.8700178833
 20
-494.9871118319
 10
710.404327307
 20
-487.7976522645
 10
715.0994057527
 20
-480.7371519961
 10
719.9471251768
 20
-473.8178340504
 10
724.9390932858
 20
-467.0516770385
 10
730.0666680655
 20
-460.4503944217
 10
735.3209727415
 20
-454.0254142336
 10
740.6929111467
 20
-447.7878592958
 10
746.1731834684
 20
-441.7485279623
 10
751.7523023479
 20
-435.9178754256
 10
757.420609305
 20
-430.3059956169
 10
763.1682914586
 20
-424.9226037317
 10
768.9853985144
 20
-419.7770194107
 10
774.861859991
 20
-414.8781506062
 10
780.7875026534
 20
-410.2344781604
 10
786.7520681252
 20
-405.8540411238
 10
792.7452306472
 20
-401.7444228381
 10
798.7566149536
 20
-397.9127378078
 10
804.7758142332
 20
-394.365619384
 10
810.7924081459
 20
-391.1092082806
 10
816.7959808616
 20
-388.1491419438
 10
822.7761390927
 20
-385.4905447923
 10
828.7225300861
 20
-383.1380193466
 10
834.6248595459
 20
-381.0956382606
 10
840.4729094553
 20
-379.3669372713
 10
846.2565557647
 20
-377.9549090779
 10
851.9657859196
 20
-376.8619981606
 10
857.5907161932
 20
-376.0900965492
 10
863.1216087972
 20
-375.6405405472
 10
867.9168505415
 20
-375.5121990278
  0
LWPOLYLINE
  5
C0
330
1F
100
AcDbEntity
  8
0
  6
Continuous
 62
     7
370
    25
100
AcDbPolyline
 90
       13
 70
   128
 43
0.0
 10
673.8538714223
 20
-711.6755627309
 10
673.4889192029
 20
-711.0368178186
 10
670.941805559
 20
-706.2090750723
 10
668.6237778154
 20
-701.1321813088
 10
666.5388489041
 20
-695.8149255644
 10
664.6906282202
 20
-690.2665129861
 10
663.0823153735
 20
-684.4965488958
 10
661.7166946491
 20
-678.5150221619
 10
660.5961301875
 20
-672.3322879065
 10
659.7225618917
 20
-665.959049579
 10
659.097502069
 20
-659.4063404263
 10
658.7220328128
 20
-652.6855043924
 10
658.5968041295
 20
-645.8081764796
  0
LWPOLYLINE
  5
C1
330
1F
100
AcDbEntity
  8
0
  6
Continuous
 62
     7
370
    25
100
AcDbPolyline
 90
       39
 70
   128
 43
0.0
 10
659.3034279044
 20
-661.8919875429
 10
659.7215938327
 20
-656.9220284103
 10
660.5947593422
 20
-648.8513994954
 10
661.7152549423
 20
-640.6815650058
 10
663.0814755339
 20
-632.4242281509
 10
664.6914640191
 20
-624.0912174862
 10
666.542914105
 20
-615.6944699691
 10
668.633173607
 20
-607.2460138596
 10
670.9592482488
 20
-598.7579514897
 10
673.5178059506
 20
-590.242441927
 10
676.3051816032
 20
-581.7116835568
 10
679.317382318
 20
-573.1778966084
 10
682.5500931463
 20
-564.6533056494
 10
685.998683261
 20
-556.1501220742
 10
689.6582125901
 20
-547.6805266114
 10
693.5234388929
 20
-539.2566518749
 10
697.5888252702
 20
-530.8905649841
 10
701.8485480949
 20
-522.5942502779
 10
706.2965053553
 20
-514.3795921472
 10
710.9263253954
 20
-506.2583580106
 10
715.7313760426
 20
-498.2421814579
 10
720.7047741081
 20
-490.3425455846
 10
725.839395247
 20
-482.5707665431
 10
731.1278841642
 20
-474.9379773321
 10
736.5626651501
 20
-467.4551118484
 10
742.1359529333
 20
-460.132889225
 10
747.8397638328
 20
-452.981798475
 10
753.6659271944
 20
-446.0120834673
 10
759.6060970952
 20
-439.2337282512
 10
765.651764299
 20
-432.6564427555
 10
771.7942684458
 20
-426.2896488782
 10
778.0248104577
 20
-420.1424669903
 10
784.334465143
 20
-414.2237028705
 10
790.7141939824
 20
-408.5418350915
 10
797.1548580757
 20
-403.1050028741
 10
803.6472312337
 20
-397.9209944281
 10
810.1820131942
 20
-392.9972357956
 10
816.7498429452
 20
-388.3407802135
 10
817.5289415406
 20
-387.8076612637
  0
ENDSEC
  0
SECTION
  2
OBJECTS
  0
DICTIONARY
  5
C
330
0
100
AcDbDictionary
281
     1
  3
ACAD_GROUP
350
D
  3
ACAD_LAYOUT
350
1A
  3
ACAD_MLINESTYLE
350
17
  3
ACAD_PLOTSETTINGS
350
19
  3
ACAD_PLOTSTYLENAME
350
E
  3
ACAD_SCALELIST
350
47
  0
DICTIONARY
  5
D
102
{ACAD_REACTORS
330
C
102
}
330
C
100
AcDbDictionary
281
     1
  0
DICTIONARY
  5
1A
102
{ACAD_REACTORS
330
C
102
}
330
C
100
AcDbDictionary
281
     1
  3
Layout1
350
1E
  3
Layout2
350
26
  3
Model
350
22
  0
DICTIONARY
  5
17
102
{ACAD_REACTORS
330
C
102
}
330
C
100
AcDbDictionary
281
     1
  3
Standard
350
18
  0
DICTIONARY
  5
19
102
{ACAD_REACTORS
330
C
102
}
330
C
100
AcDbDictionary
281
     1
  0
ACDBDICTIONARYWDFLT
  5
E
102
{ACAD_REACTORS
330
C
102
}
330
C
100
AcDbDictionary
281
     1
  3
Normal
350
F
100
AcDbDictionaryWithDefault
340
F
  0
DICTIONARY
  5
47
102
{ACAD_REACTORS
330
C
102
}
330
C
100
AcDbDictionary
281
     1
  3
A0
350
48
  3
A1
350
49
  3
A2
350
4A
  3
A3
350
4B
  3
A4
350
4C
  3
A5
350
4D
  3
A6
350
4E
  3
A7
350
4F
  3
A8
350
50
  3
A9
350
51
  3
B0
350
52
  3
B1
350
53
  3
B2
350
54
  3
B3
350
55
  3
B4
350
56
  3
B5
350
57
  3
B6
350
58
  3
B7
350
59
  3
B8
350
5A
  3
B9
350
5B
  3
C0
350
5C
  3
C1
350
5D
  3
C2
350
5E
  3
C3
350
5F
  3
C4
350
60
  3
C5
350
61
  3
C6
350
62
  3
C7
350
63
  3
C8
350
64
  3
C9
350
65
  3
D0
350
66
  3
D1
350
67
  3
D2
350
68
  0
LAYOUT
  5
1E
102
{ACAD_REACTORS
330
1A
102
}
330
1A
100
AcDbPlotSettings
  1

  2
none_device
  4

  6

 40
0.0
 41
0.0
 42
0.0
 43
0.0
 44
0.0
 45
0.0
 46
0.0
 47
0.0
 48
0.0
 49
0.0
140
0.0
141
0.0
142
1.0
143
1.0
 70
   688
 72
     1
 73
     0
 74
     5
  7

 75
    16
147
1.0
148
0.0
149
0.0
100
AcDbLayout
  1
Layout1
 70
     1
 71
     1
 10
0.0
 20
0.0
 11
420.0
 21
297.0
 12
0.0
 22
0.0
 32
0.0
 14
1.0000000000E+20
 24
1.0000000000E+20
 34
1.0000000000E+20
 15
-1.0000000000E+20
 25
-1.0000000000E+20
 35
-1.0000000000E+20
146
0.0
 13
0.0
 23
0.0
 33
0.0
 16
1.0
 26
0.0
 36
0.0
 17
0.0
 27
1.0
 37
0.0
 76
     0
330
1B
  0
LAYOUT
  5
26
102
{ACAD_REACTORS
330
1A
102
}
330
1A
100
AcDbPlotSettings
  1

  2
none_device
  4

  6

 40
0.0
 41
0.0
 42
0.0
 43
0.0
 44
0.0
 45
0.0
 46
0.0
 47
0.0
 48
0.0
 49
0.0
140
0.0
141
0.0
142
1.0
143
1.0
 70
   688
 72
     1
 73
     0
 74
     5
  7

 75
    16
147
1.0
148
0.0
149
0.0
100
AcDbLayout
  1
Layout2
 70
     1
 71
     2
 10
0.0
 20
0.0
 11
0.0
 21
0.0
 12
0.0
 22
0.0
 32
0.0
 14
0.0
 24
0.0
 34
0.0
 15
0.0
 25
0.0
 35
0.0
146
0.0
 13
0.0
 23
0.0
 33
0.0
 16
1.0
 26
0.0
 36
0.0
 17
0.0
 27
1.0
 37
0.0
 76
     0
330
23
  0
LAYOUT
  5
22
102
{ACAD_REACTORS
330
1A
102
}
330
1A
100
AcDbPlotSettings
  1

  2
none_device
  4
Letter_(8.50_x_11.00_Inches)
  6

 40
6.35
 41
6.35
 42
6.35000508
 43
6.35000508
 44
215.9
 45
279.4
 46
0.0
 47
0.0
 48
0.0
 49
0.0
140
0.0
141
0.0
142
1.0
143
1.0
 70
  1712
 72
     1
 73
     0
 74
     0
  7

 75
     0
147
1.0
148
0.0
149
0.0
100
AcDbLayout
  1
Model
 70
     1
 71
     0
 10
0.0
 20
0.0
 11
279.4
 21
215.9
 12
0.0
 22
0.0
 32
0.0
 14
0.0
 24
0.0
 34
0.0
 15
279.4
 25
215.9
 35
0.0
146
0.0
 13
0.0
 23
0.0
 33
0.0
 16
1.0
 26
0.0
 36
0.0
 17
0.0
 27
1.0
 37
0.0
 76
     0
330
1F
331
29
  0
MLINESTYLE
  5
18
102
{ACAD_REACTORS
330
17
102
}
330
17
100
AcDbMlineStyle
  2
Standard
 70
     0
  3

 62
   256
 51
90.0
 52
90.0
 71
     2
 49
0.5
 62
   256
  6
BYLAYER
 49
-0.5
 62
   256
  6
BYLAYER
  0
ACDBPLACEHOLDER
  5
F
102
{ACAD_REACTORS
330
E
102
}
330
E
  0
SCALE
  5
48
102
{ACAD_REACTORS
330
47
102
}
330
47
100
AcDbScale
 70
     0
300
1:1
140
1.0
141
1.0
290
     1
  0
SCALE
  5
49
102
{ACAD_REACTORS
330
47
102
}
330
47
100
AcDbScale
 70
     0
300
1:2
140
1.0
141
2.0
290
     0
  0
SCALE
  5
4A
102
{ACAD_REACTORS
330
47
102
}
330
47
100
AcDbScale
 70
     0
300
1:4
140
1.0
141
4.0
290
     0
  0
SCALE
  5
4B
102
{ACAD_REACTORS
330
47
102
}
330
47
100
AcDbScale
 70
     0
300
1:5
140
1.0
141
5.0
290
     0
  0
SCALE
  5
4C
102
{ACAD_REACTORS
330
47
102
}
330
47
100
AcDbScale
 70
     0
300
1:8
140
1.0
141
8.0
290
     0
  0
SCALE
  5
4D
102
{ACAD_REACTORS
330
47
102
}
330
47
100
AcDbScale
 70
     0
300
1:10
140
1.0
141
10.0
290
     0
  0
SCALE
  5
4E
102
{ACAD_REACTORS
330
47
102
}
330
47
100
AcDbScale
 70
     0
300
1:16
140
1.0
141
16.0
290
     0
  0
SCALE
  5
4F
102
{ACAD_REACTORS
330
47
102
}
330
47
100
AcDbScale
 70
     0
300
1:20
140
1.0
141
20.0
290
     0
  0
SCALE
  5
50
102
{ACAD_REACTORS
330
47
102
}
330
47
100
AcDbScale
 70
     0
300
1:30
140
1.0
141
30.0
290
     0
  0
SCALE
  5
51
102
{ACAD_REACTORS
330
47
102
}
330
47
100
AcDbScale
 70
     0
300
1:40
140
1.0
141
40.0
290
     0
  0
SCALE
  5
52
102
{ACAD_REACTORS
330
47
102
}
330
47
100
AcDbScale
 70
     0
300
1:50
140
1.0
141
50.0
290
     0
  0
SCALE
  5
53
102
{ACAD_REACTORS
330
47
102
}
330
47
100
AcDbScale
 70
     0
300
1:100
140
1.0
141
100.0
290
     0
  0
SCALE
  5
54
102
{ACAD_REACTORS
330
47
102
}
330
47
100
AcDbScale
 70
     0
300
2:1
140
2.0
141
1.0
290
     0
  0
SCALE
  5
55
102
{ACAD_REACTORS
330
47
102
}
330
47
100
AcDbScale
 70
     0
300
4:1
140
4.0
141
1.0
290
     0
  0
SCALE
  5
56
102
{ACAD_REACTORS
330
47
102
}
330
47
100
AcDbScale
 70
     0
300
8:1
140
8.0
141
1.0
290
     0
  0
SCALE
  5
57
102
{ACAD_REACTORS
330
47
102
}
330
47
100
AcDbScale
 70
     0
300
10:1
140
10.0
141
1.0
290
     0
  0
SCALE
  5
58
102
{ACAD_REACTORS
330
47
102
}
330
47
100
AcDbScale
 70
     0
300
100:1
140
100.0
141
1.0
290
     0
  0
SCALE
  5
59
102
{ACAD_REACTORS
330
47
102
}
330
47
100
AcDbScale
 70
     0
300
1/128" = 1'-0"
140
0.0078125
141
12.0
290
     0
  0
SCALE
  5
5A
102
{ACAD_REACTORS
330
47
102
}
330
47
100
AcDbScale
 70
     0
300
1/64" = 1'-0"
140
0.015625
141
12.0
290
     0
  0
SCALE
  5
5B
102
{ACAD_REACTORS
330
47
102
}
330
47
100
AcDbScale
 70
     0
300
1/32" = 1'-0"
140
0.03125
141
12.0
290
     0
  0
SCALE
  5
5C
102
{ACAD_REACTORS
330
47
102
}
330
47
100
AcDbScale
 70
     0
300
1/16" = 1'-0"
140
0.0625
141
12.0
290
     0
  0
SCALE
  5
5D
102
{ACAD_REACTORS
330
47
102
}
330
47
100
AcDbScale
 70
     0
300
3/32" = 1'-0"
140
0.09375
141
12.0
290
     0
  0
SCALE
  5
5E
102
{ACAD_REACTORS
330
47
102
}
330
47
100
AcDbScale
 70
     0
300
1/8" = 1'-0"
140
0.125
141
12.0
290
     0
  0
SCALE
  5
5F
102
{ACAD_REACTORS
330
47
102
}
330
47
100
AcDbScale
 70
     0
300
3/16" = 1'-0"
140
0.1875
141
12.0
290
     0
  0
SCALE
  5
60
102
{ACAD_REACTORS
330
47
102
}
330
47
100
AcDbScale
 70
     0
300
1/4" = 1'-0"
140
0.25
141
12.0
290
     0
  0
SCALE
  5
61
102
{ACAD_REACTORS
330
47
102
}
330
47
100
AcDbScale
 70
     0
300
3/8" = 1'-0"
140
0.375
141
12.0
290
     0
  0
SCALE
  5
62
102
{ACAD_REACTORS
330
47
102
}
330
47
100
AcDbScale
 70
     0
300
1/2" = 1'-0"
140
0.5
141
12.0
290
     0
  0
SCALE
  5
63
102
{ACAD_REACTORS
330
47
102
}
330
47
100
AcDbScale
 70
     0
300
3/4" = 1'-0"
140
0.75
141
12.0
290
     0
  0
SCALE
  5
64
102
{ACAD_REACTORS
330
47
102
}
330
47
100
AcDbScale
 70
     0
300
1" = 1'-0"
140
1.0
141
12.0
290
     0
  0
SCALE
  5
65
102
{ACAD_REACTORS
330
47
102
}
330
47
100
AcDbScale
 70
     0
300
1-1/2" = 1'-0"
140
1.5
141
12.0
290
     0
  0
SCALE
  5
66
102
{ACAD_REACTORS
330
47
102
}
330
47
100
AcDbScale
 70
     0
300
3" = 1'-0"
140
3.0
141
12.0
290
     0
  0
SCALE
  5
67
102
{ACAD_REACTORS
330
47
102
}
330
47
100
AcDbScale
 70
     0
300
6" = 1'-0"
140
6.0
141
12.0
290
     0
  0
SCALE
  5
68
102
{ACAD_REACTORS
330
47
102
}
330
47
100
AcDbScale
 70
     0
300
1'-0" = 1'-0"
140
12.0
141
12.0
290
     0
  0
ENDSEC
  0
EOF
